InícioPortalGaleriaFAQBuscarRegistrar-seMembrosGruposLogin
Compartilhe | 
 

 Violão: Aprendendo e Executando Arpejos

Ver o tópico anterior Ver o tópico seguinte Ir em baixo 
AutorMensagem
ADM Rafael
Admin


Mensagens: 17
Data de inscrição: 28/07/2007
Idade: 23
Localização: São Paulo

MensagemAssunto: Violão: Aprendendo e Executando Arpejos   Seg Jul 30, 2007 5:39 pm

ARPEJOS, Introdução

O que são arpejos? escreveu:

Arpejo é a execução das notas de um acorde de forma melódica, ou seja, as notas são tocadas em seqüência e não ao mesmo tempo como em um acorde ao se tocar uma base. Os arpejos possibilitam ao guitarrista tocar mudanças e partes com uma velocidade considerável, além de uma boa abertura melódica. Para essa técnica é importante que se estude bem o Sweep, pois ele possibilita uma execução perfeita do arpejo colocando uma sonoridade melódica bem interessante. Estude as diversas regiões do braço, em variadas escalas, depois misture arpejos a frases, isso tornará seis solos bastante virtuosos e instigantes, essa técnica é peculiar em guitarristas virtuosos, como Malmsteen, Steve Vai, Paul Gilbert, Petrucci, entre outros.
O que torna o arpejo tão interessante são suas muitas formas de aplicação. Eu gosto muito de utilizar arpejos em minhas composições. Podem ser formados de forma tríade (T, 3a, 5a), tétrade (T, 3a, 5a, 7a). Existem ainda os arpejos diminutos, arpejos menores com sétima maior, arpejos maiores com sétima menor, estes possuem um som muito interessante. Vamos exercitar alguns arpejos:


Código:
Arpejo 1
I
|----------------------3|-----5-----7-------8|
|----3-----5-----7---5--|---7-----8------10--|
|--4-----5-----7---5----|-7-----9-----11-----|
|5-----7-----9----------|--------------------|
|-----------------------|--------------------|
|-----------------------|--------------------|

Código:
Arpejo 2
II
  D        Em          F#m          G
|5-2-------2-7-3-------3-|9-5-------5-10-7-------7|
|----3---3-------5---5---|----7---7--------8---8--|
|------2-----------4-----|------6------------7----|
|------------------------|------------------------|
|------------------------|------------------------|
|------------------------|------------------------|

Típico exercício de sweep, está no campo harmônico de D MAIOR, procure fazer estas tríades para elaborar composições, não apenas para subir e descer


Código:
Arpejo 3
III

|---------------8-12|-8-------------|Arpejo em Am.(A,C,E - T,3A.5A.)
|------------10-----|---10----------|Lembrando que para um arpejo menor
|--------5/9--------|------9/5------|é colocada a terça menor, para um
|------7------------|----------7----|arpejo maior colocamos terça maior.
|----7--------------|------------7--|
|5-8----------------|--------------8|

Código:
Arpejo com Tétrades (4)
IV
  D7        Em7   
|------5-8-------7-10|TÉTRADES (T,3A.m,5a.7a.)
|----6---------8-----|
|5-7-------7-9-------|
|--------------------|
|--------------------|
|--------------------|

Código:
Arpejo 5
V
|19-15-------15-12-------12-7-----7-3------|
|------17----------12---------8-------5---5|ARPEJOS, seqüência Em
|---------16----------12--------9-------4--|
|------------------------------------------|
|------------------------------------------|
|------------------------------------------|

Código:
Arpejo 6
VI
    C          G              Am              Em
|------------12-15-10-7---------------------8-12-7-4--------|
|---------13------------8----------------10----------5------|
|------12-----------------7------------9---------------4----|
|---14----------------------9-------10-------------------6--|SEQUÊNCIA
|15---------------------------10-12------------------------7|ARPEJOS
|-----------------------------------------------------------|
    F      C                F          G         
|--------5-8-15-12---------------------5-8-10-7------------|
|------6-----------13----------------6----------8----------|
|----5----------------12-----------5--------------7--------|
|--7---------------------14------7------------------9------|
|8--------------------------15-8----------------------10-15|
|----------------------------------------------------------|

Código:
Arpejo 7
VII      CM7
|---------------8-7------------------------------------11-10--------------------|
|-------------8-----8-------------------------------11-------11-----------------|
|-----------9---------9--------------------------12-------------12--------------|
|----5-9-10-------------10-9-5-----------8-12-13-------------------13-12-8------|
|--7---------------------------7------10-----------------------------------10---|
|8-------------------------------7-11-----------------------------------------10|


Exexute esse arpejo com a mesma digitação partindo depois do que está escrito de A# (6A.CASA DA 6A CORDA ), C# (9A. CASA, 6A. CORDA) e (12A. CASA DA 6A. CORDA)
É um arpejo de minha criação que apresenta uma sonoridade bastante interessante


Código:
DIMINUTO ( IMPELLITERI )

|------4-7-4------------7-10-7---------------10-13-10------|
|----6-------6--------9--------9----------12----------12---|
|4-7-----------7-7-10------------10-10-13----------------13|
|----------------------------------------------------------|
|----------------------------------------------------------|
|----------------------------------------------------------|

DESFECHO

Procure compor seus arpejos em diversas escalas e tons diferentes, e logo após coloque-os meio aos solos executados, assim, além de dominar essa técnica você poderá tirar um som virtuoso e bonito. Mas lembre-se, não adianta somente tocar rápido,
preocupe-se com a limpeza das notas tocadas; treine muito antes de executar Arpejos em solos rápidos.
O arpejo é uma técnica muito boa.

_________________
O Verão É Agora!!!

Ta Redondo???

Yeah!!! Yeah!!!

Se Beber Não Dirija

Voltar ao Topo Ir em baixo
Ver perfil do usuário http://rlmusical.postalboard.com
MrCuringaa



Mensagens: 1
Data de inscrição: 20/03/2011

MensagemAssunto: Re: Violão: Aprendendo e Executando Arpejos   Dom Mar 20, 2011 12:13 pm

muito bom!
Voltar ao Topo Ir em baixo
Ver perfil do usuário
 

Violão: Aprendendo e Executando Arpejos

Ver o tópico anterior Ver o tópico seguinte Voltar ao Topo 
Página 1 de 1

Permissão deste fórum:Você não pode responder aos tópicos neste fórum
 ::  ::  :: -