InícioPortalGaleriaFAQBuscarRegistrar-seMembrosGruposConectar-se

Compartilhe | 
 

 Violão: Afinação com Harmônicas Naturais

Ver o tópico anterior Ver o tópico seguinte Ir em baixo 
AutorMensagem
ADM Rafael
Admin
avatar

Mensagens : 17
Data de inscrição : 28/07/2007
Idade : 26
Localização : São Paulo

MensagemAssunto: Violão: Afinação com Harmônicas Naturais   Seg Jul 30, 2007 5:06 pm

Olá.

Bom, vamos abordar um assunto que raramente vemos alguma coisa sobre ele, Como afinar através de harmônicas naturais, as harmônicas naturais consistem em tocar levemente com o dedo a corda bem em cima do traste (sem pressioná-la), essas harmônicas são mais destacadas nos trastes após as casas 5, 7, 12, 19, 24....

Através dessas harmônicas podemos ter uma afinação bem precisa de nosso instrumento, podendo utilizá-la para afinação de diversas maneiras... Abaixo estão algumas...

Podemos comparar da seguinte maneira:

Código:
e|-------<7>--|------------|-----------|------------|
b|--<5>-------|------------|-----------|------------|
g|------------|-------<7>--|-----------|------------|
d|------------|--<5>-------|------<7>--|------------|
a|------------|------------|--<5>------|------<7>---|
E|------------|------------|-----------|--<5>-------|


Ou...Esta, que é 1ª oitava abaixo que a primeira...

Código:
e|--------<19>-|--------------|-------------|--------------|
b|--<17>-------|--------------|-------------|--------------|
g|-------------|--------<19>--|-------------|--------------|
d|-------------|--<17>--------|--------<19>-|--------------|
a|-------------|--------------|---<17>------|-------<19>---|
E|-------------|--------------|-------------|--<17>--------|


Assim, que é a mesma coisa que a primeira, considerando que a freqüência do som das harmônicas do traste após a 5 casa são idênticos aos da 12 casa...

Código:
e|-------<7>--|------------|-----------|------------|
b|--<12>------|------------|-----------|------------|
g|------------|-------<7h>-|-----------|------------|
d|------------|--<12>------|------<7>--|------------|
a|------------|------------|--<12>-----|------<7>---|
E|------------|------------|-----------|--<12>------|


Neste tipo de afinação, você tem que comparar o som da harmônica natural com o som da corda solta...

Código:
e|-----------|---------|---------|--------|-----0---|
b|--------0--|---------|---------|--------|--<5>----|
g|-----------|---------|---------|------0-|---------|
d|-----------|---------|------0--|--<5>---|---------|
a|--<7>------|------0--|--<5>----|--------|---------|
E|-----------|--<5>----|---------|--------|---------|


Obs:
1. < > - Significa harmônica do traste posterior a referente casa entre os sinais;
2. onde não há o < > significa casa solta.

Galera, esses são alguns modos que a maioria dos músicos usam para afinar os instrumentos. Eu, por exemplo, uso o 1º modo, mas conheço muita gente que não gosta de usar o 1º!!!

Agora, tem vários e vários outros jeitos de afinar usando as harmônicas naturais...

Isso é o que me vem à mente no momento, conforme for clareando a idéia, eu vou postando...e se você desejar acrescentar alguma coisa, não fique acanhado...fique à vontade...

Abraços a todos...

_________________
O Verão É Agora!!!

Ta Redondo???

Yeah!!! Yeah!!!

Se Beber Não Dirija

Voltar ao Topo Ir em baixo
Ver perfil do usuário http://rlmusical.postalboard.com
 
Violão: Afinação com Harmônicas Naturais
Ver o tópico anterior Ver o tópico seguinte Voltar ao Topo 
Página 1 de 1
 Tópicos similares
-
» Produtos Naturais/Caseiros de corpo e rosto
» Os melhoradores de farinha são produtos naturais, cujas funções são:
» EXTRATOS PUROS (PÓ), ERVAS, CHÁS... (plantas para os cabelos)
» Eu quero esse cabelo!
» EXTRATOS PUROS (PÓ), ERVAS, CHÁS... (plantas para os cabelos)

Permissão deste fórum:Você não pode responder aos tópicos neste fórum
 :: Assuntos Variados :: Dicas & Macetes :: Instrumentos de Harmonia-
Ir para: